Make your own free website on Tripod.com
~~~~~~~~~~~~~~~~~~~~~~~~~~~~~~~~~~~
"Chimes"                                      
Performed by Platypus

Guitar Arrangement by Josh Thow
thow@pcug.org.au
~~~~~~~~~~~~~~~~~~~~~~~~~~~~~~~~~~~                                                                    
This is an arrangement of the keyboards, the guitar in the song doesn't play
as much as this. The verse is roughly a mix of the base/melody.


Intro/Chorus
                                                                  
E||--------------------|--------2--------4--|--------6--------7--|
B||--------------------|--2-----------------|--------------------|
G||--------3--4--------|--------------------|--------------------|
D||--------------2-----|--------------------|--4-----------6-----|
A||-----4--------------|-----0--------2-----|-----------4--------|
E||--2--------------4--|-----------0--------|-----2--------------|

                                                               
-----------------9--|-----------------2--|--------------------|
--------0--7--------|--------------2-----|--------------------|
--------------6-----|-----------1--------|--------3--4--------|
-----2--------------|--------4-----------|--------------2-----|
--0-----------------|-----2--------------|-----4--------------|
--------------------|--0-----------------|--2--------------4--|

                                                             
--------2--------4--|--------6--------7--|-----------2------||
--2-----------------|--------------------|-----------2------||
--------------------|--------------------|------------------||
--------------------|--4-----------6-----|--------4---------||
-----0--------2-----|-----------4--------|-----2------------||
-----------0--------|-----2--------------|--0---------------||





VERSE                                       
                                                                             
||--7----4---------------|---------------7-------|--9--11-------12----------|
||----------5-------7----|----------0------------|----------------------12--|
||-----------------------|-------6--8------------|--------------------------|
||-----------------------|-----------------------|--------------------------|
||--0----------4---------|------------------0----|--------------------------|
||-----------------------|--7--------------------|-----------7--9-----------|

                                                     
-----7h-9p-7----------------|--7---------2----0--4--|
--9-------------7----9--10--|-------5---------------|
----------------------------|-----------------------|
----------------0-----------|-----------------------|
----------------------------|--7---------4----------|
-----7----------------------|-----------------------|

                                                               
--2------------------|-----------------|--5----2---------------|
-------------5--4--2-|------------2----|----------3-------5----|
----------4----------|-4-------4-------|-----------------------|
-------4-------------|------4----------|-----------------------|
--2------------------|-2---------------|-------------2---------|
---------------------|-----------------|--3--------------------|

                                                   
---------------5-------|--7/-9-----10-------------|
----------2------------|-------------------10--7--|
-------4---------------|--------------------------|
-----------------------|--------------------------|
--0--------------------|--------0-----------------|
------------------3----|-----------7--------------|

                                                                              
--5h7p5-----------5-|-7--5-----------5--|--7--5-----------5-|-6---------------||
---------------5----|-------------5-----|--------------5----|----7--0--2------||
---------6--7-------|-------6--7--------|--------6--7-------|-----------------||
--------------------|-------------------|-------------------|-----------------||
--------------------|-------------------|-------------------|-----------------||
--5-----------------|-5-----------------|--5----------------|-----------------||





Bridge

||-----------2------|--------2--------|------------------|-----------------|
||-----------2------|--------2--------|-----------2------|--------2--------|
||--------4---------|--------4--------|-----------3------|--------4--------|
||-----2------------|-----------------|--------4---------|--------4--------|
||--0---------------|-----2-----------|-----4------------|-----2-----------|
||------------------|--0--------------|--2---------------|--0--------------|

                                                                          
------------------|-----------------|-----------2------|-----------------|
-----------2------|--------2--------|-----------2------|--------2--------|
-----------3------|--------4--------|--------4---------|--------4--------|
--------4---------|--------4--------|-----4------------|-----2-----------|
-----4------------|-----2-----------|--2---------------|--0--------------|
--2---------------|--0--------------|------------------|-----------------|

                                                                          
-----------2------|--------2--------|------------------|-----------------|
-----------2------|--------2--------|-----------2------|--------2--------|
--------4---------|--------4--------|-----------3------|--------4--------|
-----4------------|-----2-----------|--------4---------|--------4--------|
--2---------------|--0--------------|-----4------------|-----2-----------|
------------------|-----------------|--2---------------|--0--------------|

                                        
-----------2--------|-----------------||
--------2--2--2-----|-----------------||
-----3-----------3--|-----------------||
--1-----------------|-----------------||
--------------------|--------4--------||
--------------------|--1--4-----------||