Make your own free website on Tripod.com
#----------------------------------PLEASE NOTE---------------------------------#
#This file is the author's own work and represents their interpretation of the #
#song. You may only use this file for private study, scholarship, or research. #
#------------------------------------------------------------------------------##

                       M E T R O P O L I S     P A R T   II:
		              SCENES FROM A MEMORY
                        "SCENE THREE: II. FATAL TRAGEDY"


                                   BASS  TAB                                   
                                      by:
                            ELDER LUIS BERNARDINELLI
                            ELDER@BBS.YAZIGI.COM.BR
        The Silent Web: http://fly.to/elder



 (0:35)     (0:42)                (0:48)
G----------|---------------------|-------------------------------|----
D----------|---------------------|---------------------------2---|----
A----------|-2~~---0~~~----------|-----------------2-1~--1-4-----|----
E-0--------|-------------3-2-0---|-0-2-3-0---0-2-3---------------|----
                                   I shut the door...

                                   (1:01)
G--------------------------------|---------------------|------------------------------|--
D-------------------------2-5----|---------------------|---------------------------2--|--
A-----------------2-4~--4--------|-2~~---0~~-----------|-----------------2-1~--1-4----|--
E-0-2-3-0---0-2-3----------------|-------------3--0~~~-|-0-2-3-0---0-2-3--------------|--
                                   I felt that I...

                                         (1:19)
G---------------------------------------|----------------------------|------------------|--
D---------------------------5-8-8-------|----------------------------|-9---7--9--11--13-|--
A-----------------2-4~--4-7-------7-4---|-2~~---0~~------------------|------------------|--
E-0-2-3-0---0-2-3---------------------6-|-------------3-0~~~--2-3-0--|------------------|--
									She was so young

 (1:33)     (1:41)             (1:47)
G---------|------------------|----------------------------------------------------|------------------------------------|--
D---------|------------------|------------------------------------------------1---|--------------------------2-1-------|--
A---------|------------------|-------------0---0-2-4------------2--2-2--4-2-4-----|--------0--0-2-4--------------2-----|--
E-0~~-0~~-|-0--0-0---0-0---0-|-0-0-2---2-4------------0-4---4-4-----------------0-|-2--2-4-----------0-4--5--------4-2-|--
                               Without love, without truth...

 (2:05)
G--------------|-Jordan's-|--------------|---------------|--Again---|--
D--------------|--Church--|----------5-9-|---------------|-Jordan's-|--
A----------6-9-|---here---|-6-7-9-7~-----|-----------6-9-|--Church--|--
E-5-7-8-7~-----|-(hehehe)-|--------------|-5-7-8-7~------|----------|--


G---------------|-------------------------------|--
D----------5-9--|-7-----7-5-4-2-----------------|--
A-6-7-9-7~------|---0-0---------2-3-5-3---------|--
E---------------|-----------------------2-3-5-3-|--

 2:18 ->2:51
G--------|--
D--------|--
A--------|--
E-0-0-0--|--

  (2:51)
G-------------------------------------|---------------0-2-----------------|--
D---------1-----2-4-----2-1-----------|---------1-----------2-1-----------|--
A-2-3-0-2---2-2-----2-2-----0-3-2-0-2-|-0-2-0-2---0-0-----0-----0-3-2-0-2-|--
E-------------------------------------|-----------------------------------|--
  I tried to get more answers...

G---------------2-4-----------------|------------------------------------------------|--
D---------1-----------2-1-----------|-------------1/4-2--2-1-0-----------------------|--
A---2-0-2---2-2-----2-----0-3-2-0-2-|---------2-3--------------4-3-2-1-0-----------2-|--
E-3---------------------------------|-0-2-3-5----------------------------4-3-2-1-0---|--

                                                                              (3:12)
G-------4-----2-------------4-5-4/5\4-----|---------------------------------|-------|--
D-------------------5-4---------------7-5-|-4-6-7---------------------------|-------|--
A-2-2-2---2-2---2-2-----2-----------------|-------5-4---2-0-------4-3-2-----|-------|--
E-----------------------------------------|-----------2-----2-0-2-------2-3-|-0---0-|--

 (3:19) Play twice--------\ (3:26)
G--------------------------|---------------------------------------------|--
D------2-----------2-------|-----------------------------------------1---|--
A--------------------------|--------0--0-2-4-----------2--2-2\-4-2-4-----|--
E-0--0---0-0-0-0-0---0-0-0-|-2--2-4-----------0-4--4-4-----------------0-|--
                             Without love, without truth...

G-----------------------------------|-------|--
D-----------------------------------|-------|--
A--------0--0-2-4--------2-----2--2-|-------|--
E-2--2-4-----------4--5-----4-------|-0-2-3-|--

   (3:51 ->4:10)
G--------------------------------------------------|--
D--------------------------------------------------|--
A-------------------------------5-----4-----3---2--|--
E-0/2/3-0-0-0-0/2/3-0-0-0-0/2/3---2/3---2/3---0----|--

 (4:11)                (4:31)
G-------------------|--------------------------------|--
D-------------------|--------------------------------|--
A-------------------|--------------------------------|--
E-0-0-0-0--0-0-0-0--|-2-2--2-2--2-2---2-2--2-2--2-2--|--


Guitar and Keyboard Solo (4:39)

What the bass plays while the guitar/keyboard is in the solo, are the riffs 
from 3:49 to 4:31, with little variations, not too complicated.
It is something like this:

G------------------------------------|--
D------------------------------------|--
A-2--2--2--2-------5-----4-----3---2-|--
E------------0/2/3---2/3---2/3---0---|--

   (5:53)
G-----------4-----2/4-----------2-----0-2-0-------------------0-2-4-5-4-2-------|--
D-------------------------------------------4-2-1-------1-2-4-------------4-5-2-|--
A-2-2-2-2-2---2-2-----2-2-2-2-2---2-2-------------3-2-3-------------------------|--
E-------------------------------------------------------------------------------|--


(6:00)
Now basically, Myung plays phrases in the key of "B"... so you have the chance
to fry your fingers in the string playing this kind B:

G--------------------------------------
D-9-9-9-9-9-9-9-9-9-9-9-9-9-9-9-9-9----
A--------------------------------------
E--------------------------------------