Make your own free website on Tripod.com
Speak To Me - Bass Tab

Author - Luis Espinal Jáquez



Author : Luis  Espinal  Jáquez

Speak To Me For 5 String Bass

Luis Espinal Jáquez  (bassprogressive@hotmail.com)


Dedicated To Elet and Bielisa


This is a great song. It's very easy to play, so start jamming !!!!!!!!!!!!!!!!

  7 X
G----------------------------------------------------------------------------------------------------------------
D----------------------------3-3-3-3-3-3-3-3----------------------------------------------------------------
A---7/9-9-9-9-9-9-9-9-------------------------6-6-6-6-6-6-6-6--3-3-3-3-3-3-3-3--------------------
E-----------------------------------------------------------------------------------------------------------------
B-----------------------------------------------------------------------------------------------------------------

  3 X
G----------------------------------------------------------------------------------------------------------------
D----------------------------------------------------------------------------------------------------------------
A--6-6-6-6-6-6-6-6/8-8-8-8-8-8-8-8------------------------3-3-3-3--1-1-1-1------------------------
E----------------------------------------------4-4-4-4-4-4-4-4-----------------------------------------------
B-----------------------------------------------------------------------------------------------------------------

  7 X
G----------------------------------------------------------------------------------------------------------------
D----------------------------3-3-3-3-3-3-3-3----------------------------------------------------------------
A---7/9-9-9-9-9-9-9-9-------------------------6-6-6-6-6-6-6-6--3-3-3-3-3-3-3-3--------------------
E-----------------------------------------------------------------------------------------------------------------
B-----------------------------------------------------------------------------------------------------------------






  2 X
G----------------------------------------------------------------------------------------------------------------
D----------------------------------------------------------------------------------------------------------------
A--6-6-6-6-6-6-6-6--8-8-8-8-8-8-8-8------------------------3-3-3-3-3-3-3-3--1-1-1-1-1-1-1-1---
E----------------------------------------------4-4-4-4-4-4-4-4-----------------------------------------------
B-----------------------------------------------------------------------------------------------------------------

   3 X 
G----------------------------------------------------------------------------------------------------------------
D----------------------------------------------------------------------------------------------------------------
A--3--5-6-----3------------------------------------------------------------------------------------------------
E------------6----6--3-4--1--3-----1--3--1------------------------------------------------------------------
B-----------------------------------4-----------4-3-------------------------------------------------------------

   4 X
G----------------------------------------------------------------------------------------------------------------
D----------------------------------------------------------------------------------------------------------------
A--6-6-6-6-6-6-6-6--8-8-8-8-8-8-8-8------------------------3-3-3-3-3-3-3-3--1-1-1-1-1-1-1-1---
E----------------------------------------------4-4-4-4-4-4-4-4-----------------------------------------------
B-----------------------------------------------------------------------------------------------------------------

   6 X
G----------------------------------------------------------------------------------------------------------------
D-------------------------3-3-3-3-3-3-3-3-------------------------------------------------------------------
A---9-9-9-9-9-9-9-9-------------------------6-6-6-6-6-6-6-6--3-3-3-3-3-3-3-3-----------------------
E-----------------------------------------------------------------------------------------------------------------
B-----------------------------------------------------------------------------------------------------------------

  4 X
G----------------------------------------------------------------------------------------------------------------
D--5--7-8-----5------------------------------------------------------------------------------------------------
A------------8----8--5-6--3--5----3--5--3-------------------------------------------------------------------
E----------------------------------6------------6-5-------------------------------------------------------------
B-----------------------------------------------------------------------------------------------------------------

G--------------
D--------------
A--------------
E---3~~~~~
B--------------