Make your own free website on Tripod.com
Strange Deja Vu - Bass Tab

Author - Daniel Rodrigues de Abreu

By Daniel Rodrigues de Abreu (danzoc@dreamtheater.zzn.com)

This is my bass tab for one of the most coolest Dream Theater song: Strange Deja Vu!
I've tried to let things easy, so I also inserted the Tempo and the Time Signature.
I hope this will help many people! Any doubts or comments, please e-mail me! 
danzoc@dreamtheater.zzn.com

Tempo = 110

         Verse                                                        
   G||-----------------------------|-------------------------------|
 4 D||-----------------------------|-----------------6-------7-----|
 / A||-----------------------------|-------------------7-6-----7-6-|
 4 E||--4-4-4-4---4-4-4-4---4-4-4--|----4-4-4-4--2/4-------5-------|
   B||-----------------------------|-------------------------------|


                                                                                   
-----------------------------|----------------------|-----------------------------|
-----------------------------|----------------------|-----------------------------|
-----------------------------|----------------------|-----------------------------|
--4-4-4-4---4-4-4-4---4-4-4--|----4-4-4-4-----------|--4-4-4-4---4-4-4-4---4-4-4--|
-----------------------------|----------------------|-----------------------------|


                                                                                     
-------------------------------|-----------------------------|----------------------|
-----------------6-------7-----|-----------------------------|----------------------|
-------------------7-6-----7-6-|-----------------------------|----------------------|
----4-4-4-4--2/4-------5-------|--1-1-1-1---1-1-1-1---1-1-1--|----1-1-1-1-----------|
-------------------------------|-----------------------------|----------------------|


                                                              
-----------------------------|-------------------------------|
-----------------------------|-----------------3-------4-----|
-----------------------------|-------------------3-2-----3-2-|
--1-1-1-1---1-1-1-1---1-1-1--|----1-1-1-1--0/1-------2-------|
-----------------------------|-------------------------------|


                                                                                   
-----------------------------|----------------------|-----------------------------|
-----------------------------|----------------------|-----------------------------|
-----------------------------|----------------------|-----------------------------|
--4-4-4-4---4-4-4-4---4-4-4--|----4-4-4-4-----------|--4-4-4-4---4-4-4-4---4-4-4--|
-----------------------------|----------------------|-----------------------------|


                                                                                     
-------------------------------|-----------------------------|----------------------|
-----------------6-------7-----|-----------------------------|----------------------|
-------------------7-6-----7-6-|-----------------------------|----------------------|
----4-4-4-4--2/4-------5-------|--1-1-1-1---1-1-1-1---1-1-1--|----1-1-1-1-----------|
-------------------------------|-----------------------------|----------------------|


                                                                    Bridge                    
-----------------------------|-------------------------------|   -------------------------|
-----------------------------|-----------------3-------4-----| 7 ----------------------6~-|
-----------------------------|-------------------3-2-----3-2-| / -------------------------|
--1-1-1-1---1-1-1-1---1-1-1--|----1-1-1-1--0/1-------2-------| 8 --4-0-2-5--5-4~--4--4----|
-----------------------------|-------------------------------|   -------------------------|


                                                                              
-------------------------|-------------------------|-------------------------|
--------4~---------------|----------------------6~-|--------4~---------------|
-----------------6-7-6-4-|-------------------------|-----------------4-6-4-3-|
---4--4-----4--4---------|--4-0-2-5--5-4~--4--4----|---4--4-----4--4---------|
-------------------------|-------------------------|-------------------------|


                                                                              
-------------------------|-------------------------|-------------------------|
----------------------4~-|--------2~-------1-2-1---|----------------------4~-|
-------------------------|-----------------------4-|-------------------------|
--2-0-4-5--4-2~--2--2----|---2--2-----2--2---------|--2-0-4-5--4-2~--2--2----|
-------------------------|-------------------------|-------------------------|


                                                    Verse 2                
   -----------------1-2-1-----------------6\---|   ----------------------|
13 --------2~-------------4-1-2-1--------------| 4 ----------------------|
 / -------------------------------2/4-4--------| / ----------------------|
 8 ---2--2------2-2----------------------------| 4 --4----4----4----4----|
   --------------------------------------------|   ----------------------|


                                                                     
----------------------|----------------------|----------------------|
----------------------|----------------------|----------------------|
----------------------|----------------------|----------------------|
--4----4----4----4----|--4----4----4----4----|--4----4----4----4----|
----------------------|----------------------|----------------------|


                                                                                 
--------------------------|--------------------------|--------------------------|
--3--3--3--3--3--3--3--3--|--3--3--3--3--3--3--3--1--|--3--3--3--3--3--3--3--3--|
--------------------------|--------------------------|--------------------------|
--------------------------|--------------------------|--------------------------|
--------------------------|--------------------------|--------------------------|


                                                              
--------------------------|----------------------------------|
--3--3--3--3--3--3--3--1--|----------------------------------|
--------------------------|----------------------------------|
--------------------------|--4-4-4-4-4-4-4-4-4-4-4-4-4-4-4-4-|
--------------------------|----------------------------------|


                                                                      
----------------------------------|----------------------------------|
----------------------------------|----------------------------------|
----------------------------------|----------------------------------|
--4-4-4-4-4-4-4-4-4-4-4-4-4-4-4-4-|--4-4-4-4-4-4-4-4-4-4-4-4-4-4-4-4-|
----------------------------------|----------------------------------|


                                                                      
----------------------------------|----------------------------------|
----------------------------------|----------------------------------|
----------------------------------|----------------------------------|
--4-4-4-4-4-4-4-4-4-4-4-4-4-4-4-4-|--1-1-1-1-1-1-1-1-1-1-1-1-1-1-1-1-|
----------------------------------|----------------------------------|


                                                                      
----------------------------------|----------------------------------|
----------------------------------|----------------------------------|
----------------------------------|----------------------------------|
--1-1-1-1-1-1-1-1-1-1-1-1-1-1-1-1-|--1-1-1-1-1-1-1-1-1-1-1-1-1-1-1-1-|
----------------------------------|----------------------------------|


                                                                      
----------------------------------|----------------------------------|
----------------------------------|----------------------------------|
----------------------------------|--2-2-2-2-2-2-2-2-2-2-2-2-2-2-2-2-|
--1-1-1-1-1-1-1-1-1-1-1-1-1-1-1-1-|----------------------------------|
----------------------------------|----------------------------------|


                                                                      
----------------------------------|----------------------------------|
----------------------------------|----------------------------------|
--2-2-2-2-2-2-2-2-2-2-2-2-2-2-2-2-|--4-4-4-4-4-4-4-4-4-4-4-4-4-4-4-4-|
----------------------------------|----------------------------------|
----------------------------------|----------------------------------|


                                       Bridge 2                                                
----------------------------------|   -------------------------|-------------------------|
----------------------------------| 7 ----------------------6~-|--------4~---------------|
--4-4-4-4-4-4-4-4-4-4-4-4-4-4-4-4-| / -------------------------|-----------------6-7-6-4-|
----------------------------------| 8 --4-0-2-5--5-4~--4--4----|---4--4-----4--4---------|
----------------------------------|   -------------------------|-------------------------|


                                                                              
-------------------------|-------------------------|-------------------------|
----------------------6~-|--------4~---------------|----------------------4~-|
-------------------------|-----------------4-6-4-3-|-------------------------|
--4-0-2-5--5-4~--4--4----|---4--4-----4--4---------|--2-0-4-5--4-2~--2--2----|
-------------------------|-------------------------|-------------------------|


                                                                                      
-------------------------|-------------------------|   -----------------1-2-1-----------|
--------2~-------1-2-1---|----------------------4~-| 9 --------2~-------------4-1-2-1---|
-----------------------4-|-------------------------| / -------------------------------2-|
---2--2-----2--2---------|--2-0-4-5--4-2~--2--2----| 8 ---2--2------2-2-----------------|
-------------------------|-------------------------|   ---------------------------------|


    Chorus                                                                          
   -----------------------|----------------------|--------------------------|
 4 -----------------------|----------------------|------------------4-6---4-|
 / --4------4----4/-16\---|----------------------|--------------4-6-----6---|
 4 -----------------------|--5------5----5--5----|--4------4----------------|
   -----------------------|----------------------|--------------------------|


                                                                  
   ------------------|   -----------------------|----------------------|
 3 ------------------| 4 -----------------------|----------------------|
 / --------------6---| / --4------4----4/-16\---|----------------------|
 4 --2---4---5-------| 4 -----------------------|--5------5----5--5----|
   ------------------|   -----------------------|----------------------|


                                                                       
--------------------------|---------------------|---------------------|
------------------4-6---4-|---------------------|---------------------|
--------------4-6-----6---|---------------------|--2------2------2----|
--4------4----------------|--2------2----2------|---------------------|
--------------------------|---------------------|---------------------|


                                                                                 
--------------------------|--------------------------|--------------------------|
--------------------------|--------------------------|--------------------------|
--0--0--0--0--0--0--0--0--|--2--2--2--2--2--2--2--2--|--0--0--0--0--0-----------|
--------------------------|--------------------------|-----------------0--0--0--|
--------------------------|--------------------------|--------------------------|


                                                                       
--------------------------|---------------------|---------------------|
--------------------------|---------------------|---------------------|
--------------------------|--0------0------0----|--2------2------2----|
--2--2--2--2--2--2--2--2--|---------------------|---------------------|
--------------------------|---------------------|---------------------|


                                               Intermission                                          
---------------------|---------------------|-------7------7-------|------7----7---------|
---------------------|---------------------|----------------------|----------------7\---|
--3------3------3----|--5------5------5----|----------------------|---------------------|
---------------------|---------------------|--0----------------0--|---------------------|
---------------------|---------------------|----------------------|---------------------|


                            Tempo = 135        Verse 3                               
-------7-------------|   -----------------|   --------------------------|
---------------------| 7 -----------------| 4 --------------------------|
---------------------| / -----------------| / -------5--7-----5-7----5--|
--0-----------0------| 8 --0--------------| 4 --0----------0------0-----|
---------------------|   -----------------|   --------------------------|


                                                                               
-------------------------|--------------------------|-------------------------|
-------------------------|--------------------------|-------------------------|
--7-----5--7-------------|-------5--7-----5-7----5--|--7-----5--7-------------|
-----0--------0--3--5~---|--0----------0------0-----|-----0--------0--5--3~---|
-------------------------|--------------------------|-------------------------|


                                                                                    
--------------------------|-----------------------------|--------------------------|
--------------------------|-----------------------------|--------------------------|
-------5--7-----5-7----5--|--7-----5--7-----------5-6-7-|-------5--7-----5-7----5--|
--0----------0------0-----|-----0--------0--5-6-7-------|--0----------0------0-----|
--------------------------|-----------------------------|--------------------------|


                                                                                         
   -----------------------------------|   --------------------------|-------------------------|
 6 -----------------------------------| 4 --------------------------|-------------------------|
 / --7-----5--7-----------------------| / -------5--7-----5-7----5--|--7-----5--7-------------|
 4 -----0--------0--3--4--5--0--------| 4 --0----------0------0-----|-----0--------0--3--5~---|
   -----------------------------------|   --------------------------|-------------------------|


                                                                                
--------------------------|-------------------------|--------------------------|
--------------------------|-------------------------|--------------------------|
-------5--7-----5-7----5--|--7-----5--7-------------|-------5--7-----5-7----5--|
--0----------0------0-----|-----0--------0--3--5~---|--0----------0------0-----|
--------------------------|-------------------------|--------------------------|


                                                                               
-------------------------|--------------------------|-------------------------|
-------------------------|--------------------------|-------------------------|
--7-----5--7-------------|-------5--7-----5-7----5--|--7-----5--7-------------|
-----0--------0--3--5~---|--0----------0------0-----|-----0--------0--3--5~---|
-------------------------|--------------------------|-------------------------|


                                                                                
--------------------------|-------------------------|--------------------------|
--------------------------|-------------------------|--------------------------|
--7\---5--7-----5-7----5--|--7-----5--7-------------|--7\---5--7-----5-7----5--|
-------------0------0-----|-----0--------0--3--5~---|-------------0------0-----|
--------------------------|-------------------------|--------------------------|


                                                                               
-------------------------|--------------------------|-------------------------|
-------------------------|--------------------------|-------------------------|
--7-----5--7-------------|--7\---5--7-----5-7----5--|--7-----5--7-------------|
-----0--------0--3--5~---|-------------0------0-----|-----0--------0--3--5~---|
-------------------------|--------------------------|-------------------------|


                                                       Verse 4                         
--------------------------|--------------------------|-------------------------|
--------------------------|--------------------------|----------------------2--|
--7\---5--7-----5-7----5--|--7-----5--7--------------|--4~---------------2-----|
-------------0------0-----|-----0--------0--3--4--5--|-------0--2--3--4--------|
--------------------------|--------------------------|-------------------------|


                                                                                
--------------------------|-------------------------|--------------------------|
--------------------------|----------------------2--|----------------2---------|
--4~----------------------|--4~---------------2-----|--4~---------------4-2----|
-------0--2--3--4--3-2-0--|-------0--2--3--4--------|-------0--2--3---------4--|
--------------------------|-------------------------|--------------------------|


                                                                               
-------------------------|--------------------------|-------------------------|
----------------------2--|--------------------------|----------------------2--|
--4~---------------2-----|--4~----------------------|--4~---------------2-----|
-------0--2--3--4--------|-------0--2--3--4--3-2-0--|-------0--2--3--4--------|
-------------------------|--------------------------|-------------------------|


                           Verse 5                                                 
--------------------------|--------------------------|   ---------------------|
----------------4--2------|-------4--6-----4h6-------| 7 ---------------------|
--4~-----------------4-2--|--------------------------| / ----4--6--4~---------|
-------0--2--3------------|--4----------4------4--7~-| 8 ---------------7--2--|
--------------------------|--------------------------|   ---------------------|


                                                                               
   --------------------------|------------------------|--------------------------|
 4 -------4--6-----4h6-------|------------------------|-------4--6-----4h6-------|
 / --------------------------|----4--6--4~------------|--------------------------|
 4 --4----------4------4--7~-|---------------7--2--3--|--4----------4------4--7~-|
   --------------------------|------------------------|--------------------------|


                                                                          
   ---------------------|   --------------------------|------------------------|
 7 ---------------------| 4 -------4--6-----4h6-------|------------------------|
 / ----4--6--4~---------| / --------------------------|----4--6----------2--3--|
 8 ---------------7--2--| 4 --4----------4------4--7~-|----------2~---4--------|
   ---------------------|   --------------------------|------------------------|


Tempo = 110                                                                                    
Bridge 3                                                    Chorus 2
-------------------|-------------------|-------------------|-----------------------|
-------------------|-------------------|-------------------|-----------------------|
--4----------------|-------------------|-------------------|-----------------------|
-------------------|--5----------------|--4----------------|--2------2----2/-14\---|
-------------------|-------------------|-------------------|-----------------------|


                                                                     
----------------------|------------------4-6---4-|   ------------------|
----------------------|--------------4-6-----6---| 3 ------------------|
----------------------|--4------4----------------| / --2---4---5-------|
----------------------|--------------------------| 4 --------------4---|
--3------3----3--3----|--------------------------|   ------------------|


                                                                            
   -----------------------|----------7~---6--4-----|------------------4-6---4-|
 4 -----------------------|-------7-------------7--|--------------4-6-----6---|
 / -----------------------|--5---------------------|--4------4----------------|
 4 --2------2----2/-14\---|------------------------|--------------------------|
   -----------------------|------------------------|--------------------------|


                                                                       
---------------------|---------------------|--------------------------|
---------------------|---------------------|--------------------------|
--2------2----2------|---------------------|--0--0--0--0--0--0--0--0--|
---------------------|--0------0------0----|--------------------------|
---------------------|---------------------|--------------------------|


                                                                                 
--------------------------|--------------------------|--------------------------|
--------------------------|--------------------------|--------------------------|
--2--2--2--2--2--2--2--2--|--0--0--0--0--0-----------|--------------------------|
--------------------------|-----------------0--0--0--|--2--2--2--2--2--2--2--2--|
--------------------------|--------------------------|--------------------------|


                                                                                        
---------------------|---------------------|---------------------|---------------------|
---------------------|---------------------|---------------------|---------------------|
--0------0------0----|--2------2------2----|--3------3------3----|--5------5------5----|
---------------------|---------------------|---------------------|---------------------|
---------------------|---------------------|---------------------|---------------------|


                                                                                 
--------------------------|--------------------------|--------------------------|
--------------------------|--------------------------|--------------------------|
--0--0--0--0--0--0--0--0--|--2--2--2--2--2--2--2--2--|--0--0--0--0--0-----------|
--------------------------|--------------------------|-----------------0--0--0--|
--------------------------|--------------------------|--------------------------|


                                                                       
--------------------------|---------------------|---------------------|
--------------------------|---------------------|---------------------|
--------------------------|--0------0------0----|--2------2------2----|
--2--2--2--2--2--2--2--2--|---------------------|---------------------|
--------------------------|---------------------|---------------------|


                                                                   Tempo = 110 - 60                   
---------------------|---------------------|---------------------|-------------------|
---------------------|---------------------|---------------------|-------------------|
--3------3------3----|--3------3------3----|--5------5------5----|-------------------|
---------------------|---------------------|---------------------|--2----------------|
---------------------|---------------------|---------------------|-------------------|


                                                           
-------------------|------------------|------------------||
-------------------|------------------|------------------||
-------------------|------------------|------------------||
--3~---------------|------------------|------------------||
-------------------|------------------|------------------||

BACK to the Bass Tab Page at The Basis of a Dream.