Make your own free website on Tripod.com
The Dance Of Eternity
Bass Tab

Tab by Joe Britton

Artist - John Myung
Group - Dream Theater
Album - Scenes From A Memory
Track - The Dance Of Eternity

Here's my tab to "The Dance of Eternity". It took me Hours so I hope it was worth it. There’s a tab explanation at the end, enjoy!

If you have any questions/comments about this tab, please E-mail me at larrylaffer_uk@yahoo.co.uk

 
 Bass comes in at 0:13
      __3____ ___ ___  __3____       __3____     __3_____3____  __3____
 4    |-|-| | | | | |  |-|-| |       |-|-| |  r\ |-|-| |-|-| |  |-|-| |
 4    | | | | | | | |  | | | |   x7  | | | |  |  | | | | | | |  | | | |
G||------------------------------||--------------------------------------|
D||*----------------------------*||--------------------------------------|
A||------------------------------||--------------------------------------|
E||*----------------------------*||--------------------------------------|
B||---3-3-3-3-+-3-+-3--3-3-3-3---||--3-3-3-3-----3-3-3-3-3-3-3--3-3-3-3--|



 4   |  |\  |   7   |  |\ |   3   |      |     |  4   |  |\  |   7   |  |\ |
 4   O__|   |.  8   O__|  |   4   O.     |.    |. 4   O__|   |.  8   O__|  |
G|--------------|-------------|-------|-----------|--------------|-------------|
D|--------------|-------------|-------|-----------|--------------|-------------|
A|--------------|-------------|-------|-----------|--------------|-------------|
E|---3------4---|---3-----1---|---0---|--------2--|---3------4---|---3-----1---|
B|--------------|-------------|-------|--1--------|--------------|-------------|


                        ____  ____  ____  ____     ____  _______  ____   
 3   |      |    |   4  |  |  |  |  |  |  |  |  7  |  |  |  |--|  |  |  |\
 4   O.     |.   |.  4  |  |  |  |  |  |  |  |  8  |  |  |  |  |  |  |  |
G|-------|-----------|--------------------------|--------------------------|
D|-------|-----------|--------5-----3--6--5-----|--------------3--5--------|
A|-------|-----------|-----5-----5-----------6--|--5-----5--6--------3-----|
E|---0---|-----------|--3-----------------------|-----3-----------------1--|
B|-------|--1----4---|--------------------------|--------------------------|



   ____  ____  ____     ____  ____  ____        ____  ____  ____  ____
 3 |  |  |  |  |  |  7  |  |  |  |  |  |  |\ 4  |  |  |  |  |  |  |  |
 4 |  |  |  |  |  |  8  |  |  |  |  |  |  |  4  |  |  |  |  |  |  |  |
G|----------------4--|--5--------------1-----|--------------------------|
D|-------2--3--2-----|--------5--------------|--------5-----3--6--5-----|
A|----2--------------|-----3-----4-----------|-----5-----5-----------6--|
E|-0-----------------|--------------2-----4--|--3-----------------------|
B|-------------------|-----------------------|--------------------------|



    ____  _______  ____        ____  ____  ____        ___3___  ____  ____
 7  |  |  |  |--|  |  |  |\ 3  |  |  |  |  |  |     |\ |  |  |  |  |  |  |  |\
 8  |  |  |  |  |  |  |  |  4  |  |  |  |  |  |     |  |  |  |  |  |  |  |  |
G|--------------------------|-----------------4--|--5--------------------------|
D|--------------3--5--------|--------2--3--2-----|-----------3--5--------------|
A|--5-----5--6--------3-----|-----2--------------|-----3--6--------6-----------|
E|-----3-----------------1--|--0-----------------|-----------------------6--4--|
B|--------------------------|--------------------|--------------------4--------|


     ____  ____  __________  _______      ____  ____     __________  _______
 13  | -|  | -|  |--|--|--|  |--|--|  15  | -|  | -|  |\ |--|--|--|  |--|--|
 16  |  |  |  |  |  |  |  |  |  |  |  16  |  |  |  |  |  |  |  |  |  |  |  |
G|------------------------------------|---------------------------------------|
D|---------------------------3--5--6--|---------------------------------------|
A|---------------------3--5-----------|------------------5--3-----------------|
E|---3--4--3--4--3--4-----------------|---3--4--3--4--3--------4--3-----------|
B|------------------------------------|------------------------------6--4--3--|


     ____  ____  ____  __________  _______      ____  ____  _________  __________
 17  | -|  | -|  |  |  |--|--|--|  |--|--|  14  | -|  | -|  |-|--|--|  |--|--|--|
 16  |  |  |  |  |  |  |  |  |  |  |  |  |  16  |  |  |  |  | |  |  |  |  |  |  |
G|------------------------------------------|-------------------------------------|
D|---------------------------------3--5--6--|-------------------------------------|
A|---------------------------3--5-----------|--------------------5--3-------------|
E|---3--4--3--4--3--4--3--4-----------------|---3--4--3--4--3-4--------4--3-------|
B|------------------------------------------|-------------------------------6--4--|



 4   |  |\   |  7   |  |\ |  3   |      |   |  4   |  |\  |  7   |  |\ |  4
 4   O__|    |. 8   O__|  |  4   O.     |.  |. 4   O__|   |. 8   O__|  |  4
G|--------------|------------|-------|---------|-------------|------------|-------|
D|--------------|------------|-------|---------|-------------|------------|-------|
A|--------------|------------|-------|---------|-------------|------------|-------|
E|--------------|------------|-------|--3------|-------------|------------|---4---|
B|---3-------4--|---3-----1--|---0---|------2--|---3------4--|---3-----1--|-------|


                    ____  ____  ____  __________  _______
 5  |    r  r   17  | -|  | -|  |  |  |--|--|--|  |--|--|
 4  |    O  O   16  |  |  |  |  |  |  |  |  |  |  |  |  |
G|--------------|------------------------------------------|
D|-------Piano--|---------------------------------3--5--6--|
A|-------solo---|---------------------------3--5-----------|
E|--3-----------|---3--4--3--4--3--4--3--4-----------------|
B|--------------|------------------------------------------|



     ____  ____     __________  _______      ____  ____  __________  _______
 15  | -|  | -|  |\ |--|--|--|  |--|--|  13  | -|  | -|  |--|--|--|  |--|--|
 16  |  |  |  |  |  |  |  |  |  |  |  |  16  |  |  |  |  |  |  |  |  |  |  |
G|---------------------------------------|------------------------------------|
D|---------------------------------------|---------------------------3--5--6--|
A|------------------5--3-----------------|---------------------3--5-----------|
E|---3--4--3--4--3--------4--3-----------|---3--4--3--4--3--4-----------------|
B|------------------------------6--4--3--|------------------------------------|


                   __________  __________  __________
 4  |   |   |   3  |--|--|--|  r--|--|--|  |--|--|--|     |\     r  r\
 4  |.  |.  |   4  |  |  |  |  |  |  |__|  |__|  |__|     |      O__| 
G|--------------|-----------16-------------10----12----|-----------------|
D|--------------|-------14-----------10----------------|-----------------|
A|--------------|----------------12--------------------|-------keyboard--|
E|--6---4-------|--0--0--------------------------------|--0------solo----|
B|----------3---|--------------------------------------|-----------------|


    __________  __________  __________  ____  ____    __________  __________
 5  |--|--|--|  |--|--|--|  |--|--|--|  |  |  |  |  2 |--|--|--|  |--|--|--| 
 4  |  |  |  |  |  |  |  |  |  |  |  |  |  |  |  |  4 |  |  |  |  |  |  |  |
G|--------------------------------------------------|----------7--3----------|
D|-----------4--4--4-----------4--4--4-----4--5-----|-------6--------4-------|
A|--------------------------------------4--------3--|----5--------------5----|
E|--2--2--2-----------2--2--2-----------------------|-4--------------------6-|
B|--------------------------------------------------|------------------------|


    __________  __________  __________  ____  ____    __________  __________
 5  |--|--|--|  |--|--|--|  |--|--|--|  |  |  |  |  2 |--|--|--|  |--|--|--| 
 4  |  |  |  |  |  |  |  |  |  |  |  |  |  |  |  |  4 |  |  |  |  |  |  |  |
G|--------------------------------------------------|-7--------3-------------|
D|-----------4--4--4-----------4--4--4-----4--5-----|----6--------4-----5----|
A|--------------------------------------4--------3--|-------5--------5-----4-|
E|--2--2--2-----------2--2--2-----------------------|------------------------|
B|--------------------------------------------------|------------------------|

 
    __________  __________  __________  ____  ____    __________  __________
 5  |--|--|--|  |--|--|--|  |--|--|--|  |  |  |  |  2 |--|--|--|  |--|--|--| 
 4  |  |  |  |  |  |  |  |  |  |  |  |  |  |  |  |  4 |  |  |  |  |  |  |  |
G|--------------------------------------------------|----------7--9----------|
D|-----------4--4--4-----------4--4--4-----4--5-----|-------8--------6-------|
A|--------------------------------------4--------3--|----7--------------5----|
E|--2--2--2-----------2--2--2-----------------------|-6--------------------4-|
B|--------------------------------------------------|------------------------|


    __________  __________  __________  ____  ____    __3_____3__     __3_____3__
 5  |--|--|--|  |--|--|--|  |--|--|--|  |  |  |  |  5 |-|-| |-|-|  |\ |-|-| |-|-| 
 4  |  |  |  |  |  |  |  |  |  |  |  |  |  |  |  |  8 | | | | | |  |  | | | | | |
G|--------------------------------------------------|-----------------------------|
D|-----------4--4--4-----------4--4--4-----4--5-----|-----------------------------|
A|--------------------------------------4--------3--|-0---------------------------|
E|--2--2--2-----------2--2--2-----------------------|---4-4-3-3-2--1--0-----------|
B|--------------------------------------------------|-------------------4-4-3-2-1-|


      __________    __________    __________    __________    __________    __________
 11   |--|--|--| r\\|--|--|--| r\\|--|--|--| r\\|--|--|--| r\\|--|--|--| r\\|--|--|--|
  4   |  |  |  | |  |  |  |  | |  |  |  |  | |  |  |  |  | |  |  |  |  | |  |  |  |  |
G||--------------------------------------------------------------------------------------
D||*-------------------------------------------------------------------------------------
A||--------------------------------------------------------------------------------------
E||*-------------------------------------------------------------------------------------
B||---0--0--0--0----0--0--0--0----0--0--0--0----0--0--0--0----0--0--0--0----0--0--0--0---


     __________    __________    _______
  r\\|--|--|--| r\\|--|--|--| r\\|--|--| r\\
  |  |  |  |  | |  |  |  |  | |  |  |  | |  
G--------------------------------------------||
D-------------------------------------------*||
A--------------------------------------------||
E-------------------------------------------*||
B----0--0--0--0----0--0--0--0----0--0--0-----||


     __________    __________    __________    __________    __________    __________
     |--|--|--| r\\|--|--|--| r\\|--|--|--| r\\|--|--|--| r\\|--|--|--| r\\|--|--|--|
     |  |  |  | |  |  |  |  | |  |  |  |  | |  |  |  |  | |  |  |  |  | |  |  |  |  |
G|--------------------------------------------------------------------------------------
D|--------------------------------------------------------------------------------------
A|--------------------------------------------------------------------------------------
E|---8--8--8--8----8--8--8--8----8--8--8--8----8--8--8--8----8--8--8--8----8--8--8--8---
B|--------------------------------------------------------------------------------------


     __________    __________    _______
  r\\|--|--|--| r\\|--|--|--| r\\|--|--| r\\
  |  |  |  |  | |  |  |  |  | |  |  |  | |  
G------------------------------------------|
D------------------------------------------|
A------------------------------------------|
E----8--8--8--8----8--8--8--8----8--8--8---|
B------------------------------------------|


      ___3___        ___3___          ___3___        ___3___
 4    |  |  |  |\ r\ |  |  |  |\ r\   |  |  |  |\ r\ |  |  |  |\ r\
 4    |  |  |  |  |  |  |  |  |  |    |  |  |  |  |  |  |  |  |  |
G|---------------------------------|-------------------------------|
D|---------------------------------|-------------------------------|
A|---------------------------------|-------------------------------|
E|----8--8--8--8-----8--8--8--8----|--8--8--8--8-----8--8--8--8----|
B|---------------------------------|-------------------------------|


      ___3______     ___3______      ___3______          ___3______ 
 3    |  |  |  |  r\ |  |  |  |  r\  |  |  |  |  r\ 2    |--|--|--|  r\\ |
 4    |  |  |  |  |  |  |  |  |  |   |  |  |  |  |  4    |  |  |  |  |   |
G|--------------------------------------------------|------------------------|
D|--------------------------------------------------|------------------------|
A|--------------------------------------------------|------------------------|
E|----8--8--8--8-----8--8--8--8------8--8--8--8-----|----8--8--8--8------8\--|
B|--------------------------------------------------|------------------------|


    __________    __________    __________    __________
 5  |--|--|--| r\\|--|--|--| r\\|--|--|--| r\\|--|--|--| r\\
 4  |  |  |  | |  |  |  |  | |  |  |  |  | |  |  |  |  | |  
G|----------------------------------------------------------|
D|----------------------------------------------------------|
A|----------------------------------------------------------|
E|--0--0--0--0----0--0--0--0----0--0--0--0----0--0--0--0----|
B|----------------------------------------------------------|


    __________    __________    ____     ____    __________    _______  
 3  |--|--|--| r\\|--|--|--| r\\|--|     |--| r\\|--|--|--| r\\|--|--| r\\
 4  |  |  |  | |  |  |  |  | |  |  |     |  | |  |  |  |  | |  |  |  | |
G|------------------------------------|------------------------------------|
D|------------------------------------|------------------------------------|
A|------------------------------------|------------------------------------|
E|--0--0--0--0----0--0--0--0----0--0--|--0--0----0--0--0--0----0--0--0-----|
B|------------------------------------|------------------------------------|



    __________    __________    __________    __________
 5  |--|--|--| r\\|--|--|--| r\\|--|--|--| r\\|--|--|--| r\\
 4  |  |  |  | |  |  |  |  | |  |  |  |  | |  |  |  |  | |
G|--------------------------------------------2--2--2--2----|
D|--2--2--2--2----2--2--2--2----4--4--4--4------------------|
A|----------------------------------------------------------|
E|----------------------------------------------------------|
B|----------------------------------------------------------|


    __________    __________    ____     ____    __________    _______
 3  |--|--|--| r\\|--|--|--| r\\|--|     |--| r\\|--|--|--| r\\|--|--| r\\
 4  |  |  |  | |  |  |  |  | |  |  |     |  | |  |  |  |  | |  |  |  | |
G|------------------------------------|------------------------2--2--2----|
D|--2--2--2--2----2--2--2--2----4--4--|--4--4----4--4--4--4---------------|
A|------------------------------------|-----------------------------------|
E|------------------------------------|-----------------------------------|
B|------------------------------------|-----------------------------------|


    _______ ___        __________  __________
4   |-|-|-| |-| r\\ |\\|--|--|--|  |--|--|--|    |  |  |  |
4   | | | | | | |   |  |  |  |  |  |  |  |  |    |  |  |  |  
G|--------------------------------------------|--------------|
D|--------------------------------------------|--------------|
A|--7-----6-----------------------------------|--------------|
E|----7-0---7-0----10--9--0--8--7--0--6--5----|--9-----8-----|
B|------------------------------------------7-|-----8-----7--|




    _______ ___        __________  __________    _______ _______ _______ _______  
4   |-|-|-| |-| r\\ |\\|--|--|--|  |--|--|--|    |-|-|-| |-|-|-| |-|-|-| |-|-|-|
4   | | | | | | |   |  |  |  |  |  |  |  |  |    | | | | | | | | | | | | | | | |
G|--------------------------------------------|--0-------------------------------|
D|--------------------------------------------|----------------------------------|
A|--7-----6-----------------------------------|--------6-7-----------------------|
E|----7-0---7-0----10--9--0--8--7--0--6--5----|----8-9-----5-6-8-9-----5-6-5-----|
B|------------------------------------------7-|--------------------7-8-------8-7-|


    _______ ___        __________  __________    _______ _______ _______  _______  
4   |-|-|-| |-| r\\ |\\|--|--|--|  |--|--|--|    |-|-|-| |-|-|-| |-|-|-|  |-|-|-|
4   | | | | | | |   |  |  |  |  |  |  |  |  |    | | | | | | | | | | | |  | | | |
G|--------------------------------------------|-----------------------------------|
D|--------------------------------------------|-----------------------------------|
A|--7-----6-----------------------------------|---------------------------6---6-9-|
E|----7-0---7-0----10--9--0--8--7--0--6--5----|------------------7-8-9-10---7-----|
B|------------------------------------------7-|--8-7-5-7-5-6-7-8------------------|


    _______ ___        __________  __________    ____  _______
4   |-|-|-| |-| r\\ |\\|--|--|--|  |--|--|--|    |  |  |- | -|  |
4   | | | | | | |   |  |  |  |  |  |  |  |  |    |  |  |  |  |__O 
G|--------------------------------------------|-------------------|
D|--------------------------------------------|-------------------|
A|--7-----6-----------------------------------|-------------------|
E|----7-0---7-0----10--9--0--8--7--0--6--5----|--8--8--8--8--7\---|
B|------------------------------------------7-|-------------------|


   ____  _______     ____  ____     ____  _______ _______  ____
   |  |  |  |--|  r\\| -|  |  |     |  |  |- | -| |--|  |  |  |
   |  |  |  |  |  |  |  |  |  |     |  |  |  |  | |  |  |  |  | 
G|-------------------------------|-------------------------------|
D|-------------------------------|-------------------------------|
A|-------------------------------|-------------------------------|
E|-0--0--------0-----0--0--------|-------------------------------|
B|-------0--0--------------0--0--|--2--2--1--1--0----0--0--3--4--|


   ____  _______     ____  ____    ____  _______       ____  ____
   |  |  |  |--|  r\\| -|  |  |    |  |  |- | -|   r\\ |- |  |  |
   |  |  |  |  |  |  |  |  |  |    |  |  |  |  |   |   |  |  |  |
G|-------------------------------|---------------------------------|
D|-------------------------------|---------------------------------|
A|-------------------------------|---------------------------------|
E|-0--0--------0-----0--0--------|-2--2--2--2-------------3--2--1--|
B|-------0--0--------------0--0--|-------------0-------0-----------|


             ____             _______      ____  ____
    |  |  |\ |  | r\\   r\ |\ |- | -|  r\\ |- |  |  |    r\\ |\ |  |\ |\ |\
    |  |  |. |  | |     |  |  |  |  |  |   |  |  |  |    |   |. |  |. |  |.
G|-------------------|---------------------------------|--------------------|
D|-------------------|---------------------------------|--------------------|
A|-------------------|---------------------------------|--------------------|
E|--0----------------|---------------------------------|-----0--2--3--4--4--|
B|-----4--3--2--2----|-----1--1--1--0------0--0--3--4--|--------------------|




   r\\|\ |\ |\ |\ |\    |\  r  r
   |  |. |. |. |. |.    |   O__|.
G|-------------------|-------------|
D|-------------------|-------------|
A|-------------------|-------------|
E|----5--5--5--5--5--|--7----------|
B|-------------------|-------------|
    

     _______ _______ _______ _______   _______ _______ _______ _______
     |-|-|-| |-|-|-| |-|-|-| |-|-|-|   |-|-|-| |-|-|-| |-|-|-| |-|-|-|
     | | | | | | | | | | | | | | | |   | | | | | | | | | | | | | | | |                                                  
G||----------------------------------|---------------------------------|
D||*-2-2-2-2-2-2-2-2-2-2-2-2-2-2-2-2-|-0-0-0-0-0-0-0-0-0-0-0-0-0-0-0-0-|
A||----------------------------------|---------------------------------|
E||*---------------------------------|---------------------------------|
B||----------------------------------|---------------------------------|
   

   _______ _______ _______ _______   _______ _______ _______ _______
   |-|-|-| |-|-|-| |-|-|-| |-|-|-|   |-|-|-| |-|-|-| |-|-|-| |-|-|-|
   | | | | | | | | | | | | | | | |   | | | | | | | | | | | | | | | | 
G|---------------------------------|----------------------------------||
D|---------------------------------|---------------------------------*||
A|-0-0-0-0-0-0-0-0-0-0-0-0-0-0-0-0-|----------------------------------||
E|---------------------------------|-1-1-1-1-1-1-1-1-1-1-1-1-1-1-1-1-*||
B|---------------------------------|----------------------------------||
   

   _______ _______ _______ _______   _______ _______ _______ _______
   |-|-|-| |-|-|-| |-|-|-| |-|-|-|   |-|-|-| |-|-|-| |-|-|-| |-|-|-|
   | | | | | | | | | | | | | | | |   | | | | | | | | | | | | | | | |
G|---------------------------------|---------------------------------|
D|---------------------------------|---------------------------------|
A|---------------------------------|---------------------------------|
E|-0-0-0-0-0-0-0-0-0-0-0-0-0-0-0-0-|-1-1-1-1-1-1-1-1-3-3-3-3-3-3-3-3-|
B|---------------------------------|---------------------------------|

    
    __________   __________   __________  __________      __________  __________
    |--|--|--|   |--|--|--|   |--|--|--|  |--|--|--|      |--|--|--|  |--|--|--|
    |  |  |  |   |  |  |  |   |  |  |  |  |  |  |  |      |  |  |  |  |  |  |  |
G|----------------------------------------------------|---------------------------
D|------------------------------------10--------------|---------10-12-13-13-12-10-
A|-10-12-12-12--10-12-12-12--10-12-12----12-12-12-12--|--10--12-------------------
E|----------------------------------------------------|---------------------------
B|----------------------------------------------------|---------------------------
  distorted bass solo

   __________  _________     ________  __________  __________  __________
   |--|--|--|  |--|-|--|     |--|-|-|  |--|--|--|  |--|--|--|  |--|--|--|
   |  |  |  |  |  | |  |     |  | | |  |  |  |  |  |  |  |  |  |  |  |  |
G-----------9-10-10-9----|--------9-10-12-12-10-9-------10-12-13-13-12-10-|
D--------12-----------12-|------------------------------------------------|
A--10-12-----------------|--10-12-----------------10-12-------------------|
E------------------------|------------------------------------------------|
B------------------------|------------------------------------------------|


    __________              __________  __________    __________  __________
    |--|--|--|   |\   |\\   |--|--|--|  |--|--|--|    |--|--|--|  |--|--|--|
    |  |  |  |   |.   |     |  |  |  |  |  |  |  |    |  |  |  |  |  |  |  |
C|----------------------------14-------16-17-16-14-|-------------------------
G|--------------/14--14----16----16-17-------------|-14-12-------12-14-------
D|-------------------------------------------------|-------15-14-------15-14-
A|--10-12-12-12------------------------------------|-------------------------
E|-------------------------------------------------|-------------------------
B|-------------------------------------------------|-------------------------


   __________  __________    __________  __________  __________  __________
   |--|--|--|  |--|--|--|    |--|--|--|  |--|--|--|  |--|--|--|  |--|--|--|
   |  |  |  |  |  |  |  |    |  |  |  |  |  |  |  |  |  |  |  |  |  |  |  |
C-------------------------|-------------------------16-17-16----------------|
G-------------------------|----------------14-16-17----------16-17-14-------|
D-12----------14-12-------|----------12-14----------------------------17-15-|
A----15-14-15-------15-14-|-12-14-15----------------------------------------|
E-------------------------|-------------------------------------------------|
B-------------------------|-------------------------------------------------|


                  __________  __________           __________
   |\\ |\    |    |--|--|--|  |--|--|--| 3 |\\ |\  |--|--|--|  |
   |   |.    |    |  |  |  |  |  |  |  | 4 |   |.  |  |  |  |  |
C|---------------------------------------|-------------------------|
G|---------------------------------------|-------------------------|
D|---------------------------------------|----12--14-14-15-15-14-\-|
A|-17-15----14---12-12-14-12-12-14-14-15-|-15-----15-15-17-17-15-\-|
E|---------------------------------------|-------------------------|
B|---------------------------------------|-------------------------|

  
     _____   ____ ____ _______   _____   ____ ____ _______   _____   ____ ____ _______
  4  | |-| |\|- | |- | |-|-|-|   | |-| |\|- | |- | |-|-|-|   | |-| |\|- | |- | |-|-|-|
  4  | | | | |  | |  | | | | |   | | | | |  | |  | | | | |   | | | | |  | |  | | | | |       
G||----------------------------|---------------------------|---------------------------|
D||*---------------------------|-------------------0-2-0-2-|---------------------------|
A||--0-------0--2--------------|-0-------2--3--------------|-0-------0--2--------------|
E||*---3-1-0------3--0-1-3-1-0-|---3-1-0------3--0---------|---3-1-0------3--0-1-3-1-0-|
B||----------------------------|---------------------------|---------------------------|
  

   ___   ____ ____ ____  ___      _______ _______ _______ _______
   r-| |\|- | |- | |- |  |-|      |-|-|-| |-|-|-| |-|-|-| |-|-|-|  
   | | | |  | |  | |  |. | |      | | | | | | | | | | | | | | | | x5
G|----------------------------||-----------------------------------||
D|------------0--2-3--2------*||*---------------------------------*||
A|---0-2-----------------3-2--||--0-----------0-2------------------||
E|-------3--0----------------*||*---0-3-1-0-0-----0-3-0-0-1-3-1-0-*||
B|----------------------------||-----------------------------------||



   _______ _______ _______ _______   _______ _______ _______ _______
   |-|-|-| |-|-|-| |-|-|-| |-|-|-|   |-|-|-| |-|-|-| |-|-|-| |-|-|-|
   | | | | | | | | | | | | | | | |   | | | | | | | | | | | | | | | |
G|---------------------------------|---------------------------------|
D|-------------------------0-2-0-2-|---------------------------------|
A|-0-----------2-3-----------------|-0-----------0-2-----------------|
E|---0-3-1-0-0-----0-3-0-0---------|---0-3-1-0-0-----0-3-0-0-1-3-1-0-|
B|---------------------------------|---------------------------------|


      _______ ___ ____ ____  ___
   |\\|-|-|-| |-| |- | |- |  |-|
   |  | | | | | | |  | |  |. | |
G|-------------------------------|
D|----------------0--2-3--2--3-2-|
A|----0-2------------------------|
E|-0------0-3-0-0----------------|
B|-------------------------------|


     _______ _______ _______ _______
     |-|-|-| |-|-|-| |-|-|-| |-|-|-|
     | | | | | | | | | | | | | | | |  x5
G||-----------------------------------||
D||*-0-----------0-2-----------------*||
A||----0-3-2-0-0-----0-3-0-0-2-3-2-0--||
E||*---------------------------------*||
B||-----------------------------------||


   _______ _______ _______ _______   _______ _______ _______ _______
   |-|-|-| |-|-|-| |-|-|-| |-|-|-|   |-|-|-| |-|-|-| |-|-|-| |-|-|-| 
   | | | | | | | | | | | | | | | |   | | | | | | | | | | | | | | | |
G|---------------2-----------------|---------------------------------|
D|-0-----------0---5-2-5-2---2-----|-0-----------0-2-----------------|
A|---0-3-2-0-0-------------5---5-3-|---0-3-2-0-0-----0-3-0-0-2-3-2-0-|
E|---------------------------------|---------------------------------|
B|---------------------------------|---------------------------------|

   
   _______ ___ _______ _______ ___   _______ _______ _______ _______
   |-|-|-| |-| |-|-r-| r-|-r-| |-|   |-|-|-| |-|-|-| |-|-|-| |-|-|-|
   | | | | | | | | | | | | | | | |   | | | | | | | | | | | | | | | |
G|---------------2-----------------|---------------------------------|
D|-0-----------0-----5---2---------|-0-----------0-2-----------------|
A|---0-3-2-0-0---------------3-2-0-|---0-3-2-0-0-----0-3-0-0-2-3-2-0-|
E|---------------------------------|---------------------------------|
B|---------------------------------|---------------------------------|


   _______ _______ _______ _______   _______ _______ _______ _______
   |-|-|-| |-|-|-| |-|-|-| |-|-|-|   |-|-|-| |-|-|-| |-|-|-| |-|-|-|
   | | | | | | | | | | | | | | | |   | | | | | | | | | | | | | | | |
G|---------------------------------|---------------------------------|
D|-2-----------2-3-----------------|-3---2-0-----3-5---2-----0-2-0---|
A|---0-3-2-0-0-----0-5-0-0-3-5-3-0-|---0-----0-0-----0---0-0-------0-|
E|---------------------------------|---------------------------------|
B|---------------------------------|---------------------------------|


   _______ _______ _______ _______   _____ _____   _____ _____    _____ _____
   |-|-|-| |-|-|-| |-|-|-| |-|-|-| 6 |-|-| |-|-|   |-|-| |-|-|    |-|-| |-|-|
   | | | | | | | | | | | | | | | | 16| | | | | |   | | | | | |    | | | | | |  
G|---------------------------------|-------------|-------------|---------------|
D|-5---3-2-----5-7---3-----2-3-2---|-7---5-3---7-|-9---7-5---9-|-10---9-7---10-|
A|---0-----0-0-----0---0-0-------0-|---0-----0---|---0-----0---|----0-----0----|
E|---------------------------------|-------------|-------------|---------------|
B|---------------------------------|-------------|-------------|---------------|


   _______ _____     _____   _____    _____   _____    _____   _____     _____   _____
   |--|--| |-|-|     |-|-|   |-|-|    |-|-|   |-|-|    |-|-|   |-|-|     |-|-|   |-|-|
   |  |  | | | |     | | |   | | |    | | |   | | |    | | |   | | |     | | |   | | |
G|----------------|-----------------|----------------|----------------|-----------------|
D|-12---10-9---12-|-14---12-10---14-|15---14-12---15-|17---15-14---17-|-19---17-19---17-|
A|----0------0----|----0-------0----|---0-------0----|---0-------0----|----0-------0----|
E|----------------|-----------------|----------------|----------------|-----------------|
B|----------------|-----------------|----------------|----------------|-----------------|


    _____   _____     _______ _____   ________ ______    __________  _______
    |-|-|   |-|-|  7  |-|-|-| |-|-|   |-|-|--| |--|-|    |--|--|--|  |--|--| 4
    | | |   | | |  16 | | | | | | |   | | |  | |  | |    |  |  |  |  |  |  | 4
C|-----------------|----------------|------------------|------12-11-11-12-17-|-16tr17-|
G|-----------------|----------------|---------------10-|-9-10----------------|--------|
D|-19---17-19---17-|----------------|-----10-9-9-10----|---------------------|--------|
A|----0-------0----|--------------8-|-7-8--------------|---------------------|--------|
E|-----------------|------8-7-7-8---|------------------|---------------------|--------|
B|-----------------|--5-6-----------|------------------|---------------------|--------|

 
    _____ ___   _____ ___    _______ _____    _____ ___    _______ _____
 5  |-|-| |-|   |-|-| |-| 7  |-|-|-| |-|-| 5  |-|-| |-| 7  |-|-|-| |-|-|
 16 | | | | |   | | | | | 16 | | | | | | | 16 | | | | | 16 | | | | | | |
G|------------|-----------|----------------|------------|----------------|
D|--7---7-----|-7---7-----|--7---7---7-----|--7---7-----|--7---7---7-----|
A|------------|-----------|----------------|------------|----------------|
E|----5---5-5-|---5---5-5-|----5---5---5-5-|----5---5-5-|----5---5---5-5-|
B|------------|-----------|----------------|------------|----------------|


    _____ ___   _____ ___    _______ _____    .     .          .      .     . 
 5  |-|-| |-|   |-|-| |-| 7  |-|-|-| |-|-| 5  |\ r\ |\  |\     |\  r\ |\    |\
 16 | | | | |   | | | | | 16 | | | | | | | 8  |  |  |.  |.     |   |  |.    |. 
G|------------|-----------|----------------|----------------|---------------------|
D|--7---7-----|-7---7-----|--7---7---7-----|--7-----3-------|---------7-----3-----|
A|------------|-----------|----------------|------------3\--|--0------------------|
E|----5---5-5-|---5---5-5-|----5---5---5-5-|----------------|---------------------|
B|------------|-----------|----------------|----------------|---------------------|



 4  |  |\ |  7  |  |\ |  3   |      |   |   4  |  |\ |  7  |  |\ |
 4  O__|  |. 8  O__|  |  4   O.     |.  |.  4  O__|  |. 8  O__|  |
G|-----------|-----------|-------|----------|-----------|-----------|
D|-----------|-----------|-------|----------|-----------|-----------|
A|-----------|-----------|-------|----------|-----------|-----------|
E|--3-----4--|--3-----1--|---0---|------2---|--3-----4--|--3-----1--|
B|-----------|-----------|-------|--1-------|-----------|-----------|



 3    |   |     |  |  2  |  |  3  |   |  2   |   5  | |\  |\   | |\  |\
 4    O   |     O  |  4  |  |  4  O   |  4   O   8  |_|.  |.   |_|.  |.
G||----------|--------|--------|---------|-------|-----------|-----------||
D||*--2---3--|--0-----|--------|--2---3--|---0---|-----------|----------*||
A||----------|-----4--|--0-----|---------|-------|--4-----0--|-----------||
E||*---------|--------|-----1--|---------|-------|-----------|-4-----2--*||
B||----------|--------|--------|---------|-------|-----------|-----------||



 3    |   |  4  |  |  |  2  |   |     |\ |\ |\ |\
 4    O   |  4  |  |  O  4  |   |     |  |  |  |
G||----------|-----------|---------|---------------||
D||*--2---3--|--0--4-----|--2---3--|--0-----------*||
A||----------|--------0--|---------|-----4--0--1---||
E||*---------|-----------|---------|--------------*||
B||----------|-----------|---------|---------------||
 

  
 3                                      4
 4   all semi-quavers (16th’s)           4
G|--------------------------------------|-------------------------------------------------|
D|----------13----12--------------------|----------13----12-------------------------------|
A|-------11----11----13-14-14-15--11-12-|-------11----11----13-14-14-15-11-12-13-14-10-11-|
E|-12-14--------------------------------|-12-14-------------------------------------------|
B|--------------------------------------|-------------------------------------------------|



 3                                      4
 4                                      4   
G|--------------------------------------|----------------------------------------11-12-13-|
D|----------13----12--------------------|----------13----12----------11-12-13-14----------|
A|-------11----11----13-14-14-15--11-12-|-------11----11----13-14-15----------------------|
E|-12-14--------------------------------|-12-14-------------------------------------------|
B|--------------------------------------|-------------------------------------------------|



 3                                      5
 4                                      8
G|--------------------------------------|-------------------------------|
D|----------13----12--------------------|----------13----12-------------|
A|-------11----11----13-14-14-15--11-12-|-------11----11----14-15--11-12|
E|-12-14--------------------------------|-12-14-------------------------|
B|--------------------------------------|-------------------------------|

 
 

 3                                      7
 4                                      8
G|--------------------------------------|-------------------------------------------|
D|----------13----12--------------------|----------13----12-------------------------|
A|-------11----11----13-14-14-15--11-12-|-------11----11----14-15-11-12-13-14-10-11-|
E|-12-14--------------------------------|-12-14-------------------------------------|
B|--------------------------------------|-------------------------------------------|

 
 
 5                              11
 8                              16
G|------------------------------|----------------------------------|
D|------------------------------|------------------------9-11-12---|
A|--14-11-13-11---14-11-13-11---|-14-11-13-11---10-11-13-----------|
E|--------------0-------------0-|-------------0--------------------|
B|------------------------------|----------------------------------|



 3                         4                                  3
 4                         4                                  4
G|-------------------------|----------------------------------|--------------------------|
D|-------------------------|----------------------------------|--------------------------|
A|-------6---5-------------|-------6---5----------------------|-------6---5--------------|
E|-----4---4---6-7-7-8-4-5-|-----4---4---6-7-7-8--4-5-6-7-3-4-|-----4---4---6-7-7-8--4-5-|
B|-5-7---------------------|-5-7------------------------------|-5-7----------------------|


 
 4                                 3                          5
 4                                 4                          8
G|---------------------------------|--------------------------|---------------------|
D|---------------------------4-5-6-|--------------------------|---------------------|
A|-------6---5-------4-5-6-7-------|-------6---5--------------|-------6---5---------|
E|-----4---4---6-7-8---------------|-----4---4---6-7-7-8--4-5-|-----4---4---7-8-4-5-|
B|-5-7-----------------------------|-5-7----------------------|-5-7-----------------|

 

 3                           7                              5
 4                           8                              8                                   
G|---------------------------|------------------------------|----------------------|
D|---------------------------|------------------------------|----------------------|
A|-------6---5---------------|-------6---5------------------|----------------------|
E|-----4---4----6-7-7-8--4-5-|-----4---4---7-8-4-5--6-7-3-4-|-7-4-6-4-0--7-4-6-4-0-|
B|-5-7-----------------------|-5-7--------------------------|----------------------|



 11                       5
 16                       8                      
G|------------------------|----------------------|----------------------|
D|------------------------|----------------------|------------------2-4-|
A|------------------2-4-5-|-7-4-6-4-0--7-4-6-4-0-|-7-4-6-4-0--3-4-6-----|
E|-7-4-6-4-0--3-4-6-------|----------------------|----------------------|
B|------------------------|----------------------|----------------------|
 


 
 
 6                         11                      5
 8                         16                      8                                              
G|-------------------------|-----------------2-3-5-|-6-3-5-----6-3-5-----|
D|-5-2-4-2---5-2-4-2-4-2---|-5-2-4-2---2-4-5-------|-------6-3-------6-3-|
A|---------3-------------3-|---------3-------------|---------------------|
E|-------------------------|-----------------------|---------------------|
B|-------------------------|-----------------------|---------------------|

                                                                
                                       _______            ___3___  __________
 6                           |\ |\ |\\ |  |  |   |\ |\ |\\|--|--|  |--|--|--|
 8                           |. |  |   |  |  |   |. |  |  |  |  |  |  |  |  | 
G|-6-3-5-------------------|-------------------|-------------------------------|
D|-------6-3-5-6-5-3-------|----4------3--1----|----4-----3--4--3--1-----------|
A|-------------------6-4-3-|-2-----2---------4-|-2-----2--------------4--2-----|
E|-------------------------|-------------------|----------------------------4--|
B|-------------------------|-------------------|-------------------------------|


             _______             ___3___  ____  ____  ____              _______
   |\ |\ |\\ |  |  | 7  |\ |\ |\\|--|--|  |--|  |--|  |--|  6  |\ |\ |\\|  |  | 
   |. |  |   |  |  | 8  |. |  |  |  |  |  |  |  |  |  |  |  8  |. |  |  |  |  |
G|-------------------|--------------------------------------|--------------------|
D|----6------4--3----|-----6-----4--6--4--3-----------------|--------------------|
A|-4-----4---------6-|--4-----4--------------6--4-----4--6--|-----7-----6--4-----|
E|-------------------|-----------------------------7--------|--5-----5--------7--|
B|-------------------|--------------------------------------|--------------------|

 
             ____  ____  ____             _______              ____  ____  ____
    |\ |\ |\\|--|  |--|  |--|    |\ |\ |\\|  |  |     |\ |\ |\\|--|  |--|  |--| 
    |. |  |  |  |  |  |  |  |    |. |  |  |  |  |     |. |  |  |  |  |  |  |  | 
G|-----------------------------|-------------------|-----------------------------|
D|-----------4-----------------|-------------------|-----------1-----------------|
A|-----7--------7--6--4--------|----4-----3--1-----|-----4--------4--3--1--------|
E|--5-----5--------------7--5--|-2-----2--------4--|--2-----2--------------4--2--|
B|-----------------------------|-------------------|-----------------------------|


        _______
    |   |  |  |     |  |  | 
    |.  |  |  |     |  |  |
G|---------------|-----------|
D|---------------|-----------|
A|---------------|-----------|
E|--0---0--0--0--|--2--2--2--|
B|---------------|-----------|



                     Tabulature and rhythm explanation:



                                                             |  |\                                                                      
  =  whole note (no marking)                                 |__|  = crothet tied to quaver                                  

|                                                     
O =  minim\half note                                          +    = dead note                                   
                                                            
|                                                            (4)   = ghost note (held on                                     
| =  crotchet\quarter note                                           from previous bar)
     ___                                                     
|\   | |                                                      5\   = slide down
| or | | = quaver\eight note
     ___
|    |-|                                                      5/   = slide up
| or | | = semi-quaver\sixteenth note                        

|                                                            5tr6  = trill
|. = dotted quaver etc.

r
| = crotchet rest\quarter note rest

r\
|  = quaver rest\eigth note rest etc.

__3__
| | |
| | | = quaver triplets

__3____
| | | |
| | | | = quver triplets + quaver 
____
|- |
|  | = semi-quaver + quaver

_______
|- | -|
|  |  | = semi-quaver + quaver + semi-quaver


BACK to The Basis Of A Dream.